  0
SECTION
  2
HEADER
  9
$ACADVER
  1
AC1014
  9
$HANDSEED
  5
FFFF
  9
$MEASUREMENT
 70
     1
  0
ENDSEC
  0
SECTION
  2
TABLES
  0
TABLE
  2
VPORT
  5
8
330
0
100
AcDbSymbolTable
 70
     4
  0
VPORT
  5
2E
330
8
100
AcDbSymbolTableRecord
100
AcDbViewportTableRecord
  2
*ACTIVE
 70
     0
 10
0.0
 20
0.0
 11
1.0
 21
1.0
 12
210.0
 22
148.5
 13
0.0
 23
0.0
 14
10.0
 24
10.0
 15
10.0
 25
10.0
 16
0.0
 26
0.0
 36
1.0
 17
0.0
 27
0.0
 37
0.0
 40
341.0
 41
1.24
 42
50.0
 43
0.0
 44
0.0
 50
0.0
 51
0.0
 71
     0
 72
   100
 73
     1
 74
     3
 75
     0
 76
     0
 77
     0
 78
     0
  0
ENDTAB
  0
TABLE
  2
LTYPE
  5
5
330
0
100
AcDbSymbolTable
 70
     1
  0
LTYPE
  5
14
330
5
100
AcDbSymbolTableRecord
100
AcDbLinetypeTableRecord
  2
BYBLOCK
 70
     0
  3

 72
    65
 73
     0
 40
0.0
  0
LTYPE
  5
15
330
5
100
AcDbSymbolTableRecord
100
AcDbLinetypeTableRecord
  2
BYLAYER
 70
     0
  3

 72
    65
 73
     0
 40
0.0
  0
LTYPE
  5
16
330
5
100
AcDbSymbolTableRecord
100
AcDbLinetypeTableRecord
  2
CONTINUOUS
 70
     0
  3
Solid line
 72
    65
 73
     0
 40
0.0
  0
ENDTAB
  0
TABLE
  2
LAYER
  5
2
100
AcDbSymbolTable
 70
2
  0
LAYER
  5
50
100
AcDbSymbolTableRecord
100
AcDbLayerTableRecord
  2
0
 70
0
  6
CONTINUOUS
  0
LAYER
  5
51
100
AcDbSymbolTableRecord
100
AcDbLayerTableRecord
  2
stabi_out
 70
0
  6
CONTINUOUS
  0
ENDTAB
  0
TABLE
  2
STYLE
  5
3
330
0
100
AcDbSymbolTable
 70
     1
  0
STYLE
  5
11
330
3
100
AcDbSymbolTableRecord
100
AcDbTextStyleTableRecord
  2
STANDARD
 70
     0
 40
0.0
 41
1.0
 50
0.0
 71
     0
 42
2.5
  3
txt
  4

  0
ENDTAB
  0
TABLE
  2
VIEW
  5
6
330
0
100
AcDbSymbolTable
 70
     0
  0
ENDTAB
  0
TABLE
  2
UCS
  5
7
330
0
100
AcDbSymbolTable
 70
     0
  0
ENDTAB
  0
TABLE
  2
APPID
  5
9
330
0
100
AcDbSymbolTable
 70
     2
  0
APPID
  5
12
330
9
100
AcDbSymbolTableRecord
100
AcDbRegAppTableRecord
  2
ACAD
 70
     0
  0
ENDTAB
  0
TABLE
  2
DIMSTYLE
  5
A
330
0
100
AcDbSymbolTable
 70
     1
  0
DIMSTYLE
105
27
330
A
100
AcDbSymbolTableRecord
100
AcDbDimStyleTableRecord
  2
ISO-25
 70
     0
  3

  4

  5

  6

  7

 40
1.0
 41
2.5
 42
0.625
 43
3.75
 44
1.25
 45
0.0
 46
0.0
 47
0.0
 48
0.0
140
2.5
141
2.5
142
0.0
143
0.03937007874016
144
1.0
145
0.0
146
1.0
147
0.625
 71
     0
 72
     0
 73
     0
 74
     0
 75
     0
 76
     0
 77
     1
 78
     8
170
     0
171
     3
172
     1
173
     0
174
     0
175
     0
176
     0
177
     0
178
     0
270
     2
271
     2
272
     2
273
     2
274
     3
340
11
275
     0
280
     0
281
     0
282
     0
283
     0
284
     8
285
     0
286
     0
287
     3
288
     0
  0
ENDTAB
  0
TABLE
  2
BLOCK_RECORD
  5
1
330
0
100
AcDbSymbolTable
 70
     1
  0
BLOCK_RECORD
  5
1F
330
1
100
AcDbSymbolTableRecord
100
AcDbBlockTableRecord
  2
*MODEL_SPACE
  0
BLOCK_RECORD
  5
1B
330
1
100
AcDbSymbolTableRecord
100
AcDbBlockTableRecord
  2
*PAPER_SPACE
  0
ENDTAB
  0
ENDSEC
  0
SECTION
  2
BLOCKS
  0
BLOCK
  5
20
330
1F
100
AcDbEntity
  8
0
100
AcDbBlockBegin
  2
*MODEL_SPACE
 70
     0
 10
0.0
 20
0.0
 30
0.0
  3
*MODEL_SPACE
  1

  0
ENDBLK
  5
21
330
1F
100
AcDbEntity
  8
0
100
AcDbBlockEnd
  0
BLOCK
  5
1C
330
1B
100
AcDbEntity
 67
     1
  8
0
100
AcDbBlockBegin
  2
*PAPER_SPACE
  1

  0
ENDBLK
  5
1D
330
1B
100
AcDbEntity
 67
     1
  8
0
100
AcDbBlockEnd
  0
ENDSEC
  0
SECTION
  2
ENTITIES
  0
SPLINE
  5
100
100
AcDbEntity
  8
stabi_out
 62
7
100
AcDbSpline
 70
8
 71
3
 72
8
 73
4
 74
0
 40
0
 40
0
 40
0
 40
0
 40
1
 40
1
 40
1
 40
1
 10
227.876488
 20
176.278693
 30
0.0
 10
227.877038
 20
172.950041
 30
0.0
 10
227.628108
 20
169.626027
 30
0.0
 10
227.131778
 20
166.334586
 30
0.0
  0
LWPOLYLINE
  5
101
100
AcDbEntity
  8
stabi_out
 62
7
100
AcDbPolyline
 90
2
 70
0
 10
227.877218
 20
181.278825
 30
0.0
 10
227.876488
 20
176.278693
 30
0.0
  0
SPLINE
  5
102
100
AcDbEntity
  8
stabi_out
 62
7
100
AcDbSpline
 70
8
 71
3
 72
8
 73
4
 74
0
 40
0
 40
0
 40
0
 40
0
 40
1
 40
1
 40
1
 40
1
 10
202.965788
 20
6.076393
 30
0.0
 10
202.537177
 20
3.234061
 30
0.0
 10
200.094706
 20
1.132290
 30
0.0
 10
197.220245
 20
1.132290
 30
0.0
  0
LWPOLYLINE
  5
103
100
AcDbEntity
  8
stabi_out
 62
7
100
AcDbPolyline
 90
2
 70
0
 10
227.131778
 20
166.334586
 30
0.0
 10
202.965788
 20
6.076393
 30
0.0
  0
SPLINE
  5
104
100
AcDbEntity
  8
stabi_out
 62
7
100
AcDbSpline
 70
8
 71
3
 72
8
 73
4
 74
0
 40
0
 40
0
 40
0
 40
0
 40
1
 40
1
 40
1
 40
1
 10
26.132283
 20
1.132290
 30
0.0
 10
23.236884
 20
1.132290
 30
0.0
 10
20.755798
 20
3.202941
 30
0.0
 10
20.237854
 20
6.051643
 30
0.0
  0
LWPOLYLINE
  5
105
100
AcDbEntity
  8
stabi_out
 62
7
100
AcDbPolyline
 90
2
 70
0
 10
197.220245
 20
1.132290
 30
0.0
 10
26.132283
 20
1.132290
 30
0.0
  0
SPLINE
  5
106
100
AcDbEntity
  8
stabi_out
 62
7
100
AcDbSpline
 70
8
 71
3
 72
8
 73
4
 74
0
 40
0
 40
0
 40
0
 40
0
 40
1
 40
1
 40
1
 40
1
 10
2.026699
 20
106.212986
 30
0.0
 10
1.431621
 20
109.485914
 30
0.0
 10
1.132278
 20
112.805754
 30
0.0
 10
1.132292
 20
116.132340
 30
0.0
  0
LWPOLYLINE
  5
107
100
AcDbEntity
  8
stabi_out
 62
7
100
AcDbPolyline
 90
2
 70
0
 10
20.237854
 20
6.051643
 30
0.0
 10
2.026699
 20
106.212986
 30
0.0
  0
SPLINE
  5
108
100
AcDbEntity
  8
stabi_out
 62
7
100
AcDbSpline
 70
8
 71
3
 72
8
 73
4
 74
0
 40
0
 40
0
 40
0
 40
0
 40
1
 40
1
 40
1
 40
1
 10
1.133412
 20
202.444886
 30
0.0
 10
1.133423
 20
205.206314
 30
0.0
 10
3.372006
 20
207.444888
 30
0.0
 10
6.133435
 20
207.444888
 30
0.0
  0
LWPOLYLINE
  5
109
100
AcDbEntity
  8
stabi_out
 62
7
100
AcDbPolyline
 90
2
 70
0
 10
1.132292
 20
116.132340
 30
0.0
 10
1.133412
 20
202.444886
 30
0.0
  0
SPLINE
  5
10a
100
AcDbEntity
  8
stabi_out
 62
7
100
AcDbSpline
 70
8
 71
3
 72
8
 73
4
 74
0
 40
0
 40
0
 40
0
 40
0
 40
1
 40
1
 40
1
 40
1
 10
222.872086
 20
207.444888
 30
0.0
 10
225.633647
 20
207.444888
 30
0.0
 10
227.872458
 20
205.206445
 30
0.0
 10
227.872918
 20
202.444886
 30
0.0
  0
LWPOLYLINE
  5
10b
100
AcDbEntity
  8
stabi_out
 62
7
100
AcDbPolyline
 90
2
 70
0
 10
6.133435
 20
207.444888
 30
0.0
 10
222.872086
 20
207.444888
 30
0.0
  0
SPLINE
  5
10c
100
AcDbEntity
  8
stabi_out
 62
1
100
AcDbSpline
 70
8
 71
3
 72
8
 73
4
 74
0
 40
0
 40
0
 40
0
 40
0
 40
1
 40
1
 40
1
 40
1
 10
7.732446
 20
202.444885
 30
0.0
 10
7.732446
 20
202.020538
 30
0.0
 10
7.563875
 20
201.613572
 30
0.0
 10
7.263816
 20
201.313514
 30
0.0
  0
SPLINE
  5
10d
100
AcDbEntity
  8
stabi_out
 62
1
100
AcDbSpline
 70
8
 71
3
 72
8
 73
4
 74
0
 40
0
 40
0
 40
0
 40
0
 40
1
 40
1
 40
1
 40
1
 10
7.263816
 20
201.313514
 30
0.0
 10
6.963758
 20
201.013455
 30
0.0
 10
6.556792
 20
200.844884
 30
0.0
 10
6.132445
 20
200.844884
 30
0.0
  0
SPLINE
  5
10e
100
AcDbEntity
  8
stabi_out
 62
1
100
AcDbSpline
 70
8
 71
3
 72
8
 73
4
 74
0
 40
0
 40
0
 40
0
 40
0
 40
1
 40
1
 40
1
 40
1
 10
6.132445
 20
200.844884
 30
0.0
 10
5.248789
 20
200.844884
 30
0.0
 10
4.532444
 20
201.561229
 30
0.0
 10
4.532444
 20
202.444885
 30
0.0
  0
SPLINE
  5
10f
100
AcDbEntity
  8
stabi_out
 62
1
100
AcDbSpline
 70
8
 71
3
 72
8
 73
4
 74
0
 40
0
 40
0
 40
0
 40
0
 40
1
 40
1
 40
1
 40
1
 10
4.532444
 20
202.444885
 30
0.0
 10
4.532444
 20
202.869232
 30
0.0
 10
4.701015
 20
203.276198
 30
0.0
 10
5.001074
 20
203.576256
 30
0.0
  0
SPLINE
  5
110
100
AcDbEntity
  8
stabi_out
 62
1
100
AcDbSpline
 70
8
 71
3
 72
8
 73
4
 74
0
 40
0
 40
0
 40
0
 40
0
 40
1
 40
1
 40
1
 40
1
 10
5.001074
 20
203.576256
 30
0.0
 10
5.301132
 20
203.876315
 30
0.0
 10
5.708099
 20
204.044886
 30
0.0
 10
6.132445
 20
204.044886
 30
0.0
  0
SPLINE
  5
111
100
AcDbEntity
  8
stabi_out
 62
1
100
AcDbSpline
 70
8
 71
3
 72
8
 73
4
 74
0
 40
0
 40
0
 40
0
 40
0
 40
1
 40
1
 40
1
 40
1
 10
6.132445
 20
204.044886
 30
0.0
 10
6.556792
 20
204.044886
 30
0.0
 10
6.963758
 20
203.876315
 30
0.0
 10
7.263817
 20
203.576256
 30
0.0
  0
SPLINE
  5
112
100
AcDbEntity
  8
stabi_out
 62
1
100
AcDbSpline
 70
8
 71
3
 72
8
 73
4
 74
0
 40
0
 40
0
 40
0
 40
0
 40
1
 40
1
 40
1
 40
1
 10
7.263817
 20
203.576256
 30
0.0
 10
7.563875
 20
203.276198
 30
0.0
 10
7.732446
 20
202.869232
 30
0.0
 10
7.732446
 20
202.444885
 30
0.0
  0
LWPOLYLINE
  5
113
100
AcDbEntity
  8
stabi_out
 62
7
100
AcDbPolyline
 90
11
 70
0
 10
227.872918
 20
202.444886
 30
0.0
 10
227.870918
 20
197.452882
 30
0.0
 10
207.196879
 20
197.444882
 30
0.0
 10
207.204879
 20
173.205991
 30
0.0
 10
212.220342
 20
173.205991
 30
0.0
 10
212.220342
 20
181.272824
 30
0.0
 10
215.866383
 20
181.273924
 30
0.0
 10
215.866383
 20
177.240505
 30
0.0
 10
219.270005
 20
177.241395
 30
0.0
 10
219.268005
 20
181.275695
 30
0.0
 10
227.877218
 20
181.278825
 30
0.0
  0
SPLINE
  5
114
100
AcDbEntity
  8
stabi_out
 62
1
100
AcDbSpline
 70
8
 71
3
 72
8
 73
4
 74
0
 40
0
 40
0
 40
0
 40
0
 40
1
 40
1
 40
1
 40
1
 10
61.917105
 20
202.444885
 30
0.0
 10
61.917105
 20
202.020538
 30
0.0
 10
61.748534
 20
201.613572
 30
0.0
 10
61.448475
 20
201.313514
 30
0.0
  0
SPLINE
  5
115
100
AcDbEntity
  8
stabi_out
 62
1
100
AcDbSpline
 70
8
 71
3
 72
8
 73
4
 74
0
 40
0
 40
0
 40
0
 40
0
 40
1
 40
1
 40
1
 40
1
 10
61.448475
 20
201.313514
 30
0.0
 10
61.148417
 20
201.013455
 30
0.0
 10
60.741451
 20
200.844884
 30
0.0
 10
60.317104
 20
200.844884
 30
0.0
  0
SPLINE
  5
116
100
AcDbEntity
  8
stabi_out
 62
1
100
AcDbSpline
 70
8
 71
3
 72
8
 73
4
 74
0
 40
0
 40
0
 40
0
 40
0
 40
1
 40
1
 40
1
 40
1
 10
60.317104
 20
200.844884
 30
0.0
 10
59.892757
 20
200.844884
 30
0.0
 10
59.485791
 20
201.013455
 30
0.0
 10
59.185733
 20
201.313514
 30
0.0
  0
SPLINE
  5
117
100
AcDbEntity
  8
stabi_out
 62
1
100
AcDbSpline
 70
8
 71
3
 72
8
 73
4
 74
0
 40
0
 40
0
 40
0
 40
0
 40
1
 40
1
 40
1
 40
1
 10
59.185733
 20
201.313514
 30
0.0
 10
58.885674
 20
201.613572
 30
0.0
 10
58.717103
 20
202.020538
 30
0.0
 10
58.717103
 20
202.444885
 30
0.0
  0
SPLINE
  5
118
100
AcDbEntity
  8
stabi_out
 62
1
100
AcDbSpline
 70
8
 71
3
 72
8
 73
4
 74
0
 40
0
 40
0
 40
0
 40
0
 40
1
 40
1
 40
1
 40
1
 10
58.717103
 20
202.444885
 30
0.0
 10
58.717103
 20
202.869232
 30
0.0
 10
58.885674
 20
203.276198
 30
0.0
 10
59.185733
 20
203.576256
 30
0.0
  0
SPLINE
  5
119
100
AcDbEntity
  8
stabi_out
 62
1
100
AcDbSpline
 70
8
 71
3
 72
8
 73
4
 74
0
 40
0
 40
0
 40
0
 40
0
 40
1
 40
1
 40
1
 40
1
 10
59.185733
 20
203.576256
 30
0.0
 10
59.485791
 20
203.876315
 30
0.0
 10
59.892757
 20
204.044886
 30
0.0
 10
60.317104
 20
204.044886
 30
0.0
  0
SPLINE
  5
11a
100
AcDbEntity
  8
stabi_out
 62
1
100
AcDbSpline
 70
8
 71
3
 72
8
 73
4
 74
0
 40
0
 40
0
 40
0
 40
0
 40
1
 40
1
 40
1
 40
1
 10
60.317104
 20
204.044886
 30
0.0
 10
60.741451
 20
204.044886
 30
0.0
 10
61.148417
 20
203.876315
 30
0.0
 10
61.448475
 20
203.576256
 30
0.0
  0
SPLINE
  5
11b
100
AcDbEntity
  8
stabi_out
 62
1
100
AcDbSpline
 70
8
 71
3
 72
8
 73
4
 74
0
 40
0
 40
0
 40
0
 40
0
 40
1
 40
1
 40
1
 40
1
 10
61.448475
 20
203.576256
 30
0.0
 10
61.748534
 20
203.276198
 30
0.0
 10
61.917105
 20
202.869232
 30
0.0
 10
61.917105
 20
202.444885
 30
0.0
  0
LWPOLYLINE
  5
11c
100
AcDbEntity
  8
stabi_out
 62
1
100
AcDbPolyline
 90
1
 70
1
 10
7.732446
 20
202.444885
 30
0.0
  0
SPLINE
  5
11d
100
AcDbEntity
  8
stabi_out
 62
1
100
AcDbSpline
 70
8
 71
3
 72
8
 73
4
 74
0
 40
0
 40
0
 40
0
 40
0
 40
1
 40
1
 40
1
 40
1
 10
116.101770
 20
202.444885
 30
0.0
 10
116.101770
 20
202.020538
 30
0.0
 10
115.933199
 20
201.613572
 30
0.0
 10
115.633141
 20
201.313514
 30
0.0
  0
SPLINE
  5
11e
100
AcDbEntity
  8
stabi_out
 62
1
100
AcDbSpline
 70
8
 71
3
 72
8
 73
4
 74
0
 40
0
 40
0
 40
0
 40
0
 40
1
 40
1
 40
1
 40
1
 10
115.633141
 20
201.313514
 30
0.0
 10
115.333082
 20
201.013455
 30
0.0
 10
114.926116
 20
200.844884
 30
0.0
 10
114.501769
 20
200.844884
 30
0.0
  0
SPLINE
  5
11f
100
AcDbEntity
  8
stabi_out
 62
1
100
AcDbSpline
 70
8
 71
3
 72
8
 73
4
 74
0
 40
0
 40
0
 40
0
 40
0
 40
1
 40
1
 40
1
 40
1
 10
114.501769
 20
200.844884
 30
0.0
 10
113.618113
 20
200.844884
 30
0.0
 10
112.901769
 20
201.561229
 30
0.0
 10
112.901769
 20
202.444885
 30
0.0
  0
SPLINE
  5
120
100
AcDbEntity
  8
stabi_out
 62
1
100
AcDbSpline
 70
8
 71
3
 72
8
 73
4
 74
0
 40
0
 40
0
 40
0
 40
0
 40
1
 40
1
 40
1
 40
1
 10
112.901769
 20
202.444885
 30
0.0
 10
112.901769
 20
202.869232
 30
0.0
 10
113.070340
 20
203.276198
 30
0.0
 10
113.370398
 20
203.576256
 30
0.0
  0
SPLINE
  5
121
100
AcDbEntity
  8
stabi_out
 62
1
100
AcDbSpline
 70
8
 71
3
 72
8
 73
4
 74
0
 40
0
 40
0
 40
0
 40
0
 40
1
 40
1
 40
1
 40
1
 10
113.370398
 20
203.576256
 30
0.0
 10
113.670456
 20
203.876315
 30
0.0
 10
114.077423
 20
204.044886
 30
0.0
 10
114.501769
 20
204.044886
 30
0.0
  0
SPLINE
  5
122
100
AcDbEntity
  8
stabi_out
 62
1
100
AcDbSpline
 70
8
 71
3
 72
8
 73
4
 74
0
 40
0
 40
0
 40
0
 40
0
 40
1
 40
1
 40
1
 40
1
 10
114.501769
 20
204.044886
 30
0.0
 10
114.926116
 20
204.044886
 30
0.0
 10
115.333082
 20
203.876315
 30
0.0
 10
115.633141
 20
203.576256
 30
0.0
  0
SPLINE
  5
123
100
AcDbEntity
  8
stabi_out
 62
1
100
AcDbSpline
 70
8
 71
3
 72
8
 73
4
 74
0
 40
0
 40
0
 40
0
 40
0
 40
1
 40
1
 40
1
 40
1
 10
115.633141
 20
203.576256
 30
0.0
 10
115.933199
 20
203.276198
 30
0.0
 10
116.101770
 20
202.869232
 30
0.0
 10
116.101770
 20
202.444885
 30
0.0
  0
LWPOLYLINE
  5
124
100
AcDbEntity
  8
stabi_out
 62
1
100
AcDbPolyline
 90
1
 70
1
 10
61.917105
 20
202.444885
 30
0.0
  0
SPLINE
  5
125
100
AcDbEntity
  8
stabi_out
 62
1
100
AcDbSpline
 70
8
 71
3
 72
8
 73
4
 74
0
 40
0
 40
0
 40
0
 40
0
 40
1
 40
1
 40
1
 40
1
 10
224.471097
 20
202.444885
 30
0.0
 10
224.471097
 20
202.020538
 30
0.0
 10
224.302526
 20
201.613572
 30
0.0
 10
224.002468
 20
201.313514
 30
0.0
  0
SPLINE
  5
126
100
AcDbEntity
  8
stabi_out
 62
1
100
AcDbSpline
 70
8
 71
3
 72
8
 73
4
 74
0
 40
0
 40
0
 40
0
 40
0
 40
1
 40
1
 40
1
 40
1
 10
224.002468
 20
201.313514
 30
0.0
 10
223.702409
 20
201.013455
 30
0.0
 10
223.295443
 20
200.844884
 30
0.0
 10
222.871096
 20
200.844884
 30
0.0
  0
SPLINE
  5
127
100
AcDbEntity
  8
stabi_out
 62
1
100
AcDbSpline
 70
8
 71
3
 72
8
 73
4
 74
0
 40
0
 40
0
 40
0
 40
0
 40
1
 40
1
 40
1
 40
1
 10
222.871096
 20
200.844884
 30
0.0
 10
222.446750
 20
200.844884
 30
0.0
 10
222.039783
 20
201.013455
 30
0.0
 10
221.739725
 20
201.313514
 30
0.0
  0
SPLINE
  5
128
100
AcDbEntity
  8
stabi_out
 62
1
100
AcDbSpline
 70
8
 71
3
 72
8
 73
4
 74
0
 40
0
 40
0
 40
0
 40
0
 40
1
 40
1
 40
1
 40
1
 10
221.739725
 20
201.313514
 30
0.0
 10
221.439666
 20
201.613572
 30
0.0
 10
221.271095
 20
202.020538
 30
0.0
 10
221.271095
 20
202.444885
 30
0.0
  0
SPLINE
  5
129
100
AcDbEntity
  8
stabi_out
 62
1
100
AcDbSpline
 70
8
 71
3
 72
8
 73
4
 74
0
 40
0
 40
0
 40
0
 40
0
 40
1
 40
1
 40
1
 40
1
 10
221.271095
 20
202.444885
 30
0.0
 10
221.271095
 20
202.869232
 30
0.0
 10
221.439666
 20
203.276198
 30
0.0
 10
221.739725
 20
203.576256
 30
0.0
  0
SPLINE
  5
12a
100
AcDbEntity
  8
stabi_out
 62
1
100
AcDbSpline
 70
8
 71
3
 72
8
 73
4
 74
0
 40
0
 40
0
 40
0
 40
0
 40
1
 40
1
 40
1
 40
1
 10
221.739725
 20
203.576256
 30
0.0
 10
222.039783
 20
203.876315
 30
0.0
 10
222.446750
 20
204.044886
 30
0.0
 10
222.871096
 20
204.044886
 30
0.0
  0
SPLINE
  5
12b
100
AcDbEntity
  8
stabi_out
 62
1
100
AcDbSpline
 70
8
 71
3
 72
8
 73
4
 74
0
 40
0
 40
0
 40
0
 40
0
 40
1
 40
1
 40
1
 40
1
 10
222.871096
 20
204.044886
 30
0.0
 10
223.295443
 20
204.044886
 30
0.0
 10
223.702409
 20
203.876315
 30
0.0
 10
224.002468
 20
203.576256
 30
0.0
  0
SPLINE
  5
12c
100
AcDbEntity
  8
stabi_out
 62
1
100
AcDbSpline
 70
8
 71
3
 72
8
 73
4
 74
0
 40
0
 40
0
 40
0
 40
0
 40
1
 40
1
 40
1
 40
1
 10
224.002468
 20
203.576256
 30
0.0
 10
224.302526
 20
203.276198
 30
0.0
 10
224.471097
 20
202.869232
 30
0.0
 10
224.471097
 20
202.444885
 30
0.0
  0
LWPOLYLINE
  5
12d
100
AcDbEntity
  8
stabi_out
 62
1
100
AcDbPolyline
 90
1
 70
1
 10
116.101770
 20
202.444885
 30
0.0
  0
SPLINE
  5
12e
100
AcDbEntity
  8
stabi_out
 62
1
100
AcDbSpline
 70
8
 71
3
 72
8
 73
4
 74
0
 40
0
 40
0
 40
0
 40
0
 40
1
 40
1
 40
1
 40
1
 10
224.471117
 20
173.205995
 30
0.0
 10
224.471117
 20
172.781648
 30
0.0
 10
224.302546
 20
172.374682
 30
0.0
 10
224.002488
 20
172.074623
 30
0.0
  0
SPLINE
  5
12f
100
AcDbEntity
  8
stabi_out
 62
1
100
AcDbSpline
 70
8
 71
3
 72
8
 73
4
 74
0
 40
0
 40
0
 40
0
 40
0
 40
1
 40
1
 40
1
 40
1
 10
224.002488
 20
172.074623
 30
0.0
 10
223.702429
 20
171.774565
 30
0.0
 10
223.295463
 20
171.605994
 30
0.0
 10
222.871116
 20
171.605994
 30
0.0
  0
SPLINE
  5
130
100
AcDbEntity
  8
stabi_out
 62
1
100
AcDbSpline
 70
8
 71
3
 72
8
 73
4
 74
0
 40
0
 40
0
 40
0
 40
0
 40
1
 40
1
 40
1
 40
1
 10
222.871116
 20
171.605994
 30
0.0
 10
221.987460
 20
171.605994
 30
0.0
 10
221.271115
 20
172.322339
 30
0.0
 10
221.271115
 20
173.205995
 30
0.0
  0
SPLINE
  5
131
100
AcDbEntity
  8
stabi_out
 62
1
100
AcDbSpline
 70
8
 71
3
 72
8
 73
4
 74
0
 40
0
 40
0
 40
0
 40
0
 40
1
 40
1
 40
1
 40
1
 10
221.271115
 20
173.205995
 30
0.0
 10
221.271115
 20
174.089651
 30
0.0
 10
221.987460
 20
174.805995
 30
0.0
 10
222.871116
 20
174.805995
 30
0.0
  0
SPLINE
  5
132
100
AcDbEntity
  8
stabi_out
 62
1
100
AcDbSpline
 70
8
 71
3
 72
8
 73
4
 74
0
 40
0
 40
0
 40
0
 40
0
 40
1
 40
1
 40
1
 40
1
 10
222.871116
 20
174.805995
 30
0.0
 10
223.295463
 20
174.805995
 30
0.0
 10
223.702429
 20
174.637424
 30
0.0
 10
224.002488
 20
174.337366
 30
0.0
  0
SPLINE
  5
133
100
AcDbEntity
  8
stabi_out
 62
1
100
AcDbSpline
 70
8
 71
3
 72
8
 73
4
 74
0
 40
0
 40
0
 40
0
 40
0
 40
1
 40
1
 40
1
 40
1
 10
224.002488
 20
174.337366
 30
0.0
 10
224.302546
 20
174.037308
 30
0.0
 10
224.471117
 20
173.630341
 30
0.0
 10
224.471117
 20
173.205995
 30
0.0
  0
LWPOLYLINE
  5
134
100
AcDbEntity
  8
stabi_out
 62
1
100
AcDbPolyline
 90
1
 70
1
 10
224.471097
 20
202.444885
 30
0.0
  0
SPLINE
  5
135
100
AcDbEntity
  8
stabi_out
 62
1
100
AcDbSpline
 70
8
 71
3
 72
8
 73
4
 74
0
 40
0
 40
0
 40
0
 40
0
 40
1
 40
1
 40
1
 40
1
 10
208.820430
 20
96.132341
 30
0.0
 10
208.820430
 20
95.707995
 30
0.0
 10
208.651859
 20
95.301028
 30
0.0
 10
208.351801
 20
95.000970
 30
0.0
  0
SPLINE
  5
136
100
AcDbEntity
  8
stabi_out
 62
1
100
AcDbSpline
 70
8
 71
3
 72
8
 73
4
 74
0
 40
0
 40
0
 40
0
 40
0
 40
1
 40
1
 40
1
 40
1
 10
208.351801
 20
95.000970
 30
0.0
 10
208.051742
 20
94.700912
 30
0.0
 10
207.644776
 20
94.532341
 30
0.0
 10
207.220429
 20
94.532341
 30
0.0
  0
SPLINE
  5
137
100
AcDbEntity
  8
stabi_out
 62
1
100
AcDbSpline
 70
8
 71
3
 72
8
 73
4
 74
0
 40
0
 40
0
 40
0
 40
0
 40
1
 40
1
 40
1
 40
1
 10
207.220429
 20
94.532341
 30
0.0
 10
206.796083
 20
94.532341
 30
0.0
 10
206.389116
 20
94.700912
 30
0.0
 10
206.089058
 20
95.000970
 30
0.0
  0
SPLINE
  5
138
100
AcDbEntity
  8
stabi_out
 62
1
100
AcDbSpline
 70
8
 71
3
 72
8
 73
4
 74
0
 40
0
 40
0
 40
0
 40
0
 40
1
 40
1
 40
1
 40
1
 10
206.089058
 20
95.000970
 30
0.0
 10
205.789000
 20
95.301028
 30
0.0
 10
205.620429
 20
95.707995
 30
0.0
 10
205.620429
 20
96.132341
 30
0.0
  0
SPLINE
  5
139
100
AcDbEntity
  8
stabi_out
 62
1
100
AcDbSpline
 70
8
 71
3
 72
8
 73
4
 74
0
 40
0
 40
0
 40
0
 40
0
 40
1
 40
1
 40
1
 40
1
 10
205.620429
 20
96.132341
 30
0.0
 10
205.620429
 20
96.556688
 30
0.0
 10
205.789000
 20
96.963654
 30
0.0
 10
206.089058
 20
97.263713
 30
0.0
  0
SPLINE
  5
13a
100
AcDbEntity
  8
stabi_out
 62
1
100
AcDbSpline
 70
8
 71
3
 72
8
 73
4
 74
0
 40
0
 40
0
 40
0
 40
0
 40
1
 40
1
 40
1
 40
1
 10
206.089058
 20
97.263713
 30
0.0
 10
206.389116
 20
97.563771
 30
0.0
 10
206.796083
 20
97.732342
 30
0.0
 10
207.220429
 20
97.732342
 30
0.0
  0
SPLINE
  5
13b
100
AcDbEntity
  8
stabi_out
 62
1
100
AcDbSpline
 70
8
 71
3
 72
8
 73
4
 74
0
 40
0
 40
0
 40
0
 40
0
 40
1
 40
1
 40
1
 40
1
 10
207.220429
 20
97.732342
 30
0.0
 10
207.644776
 20
97.732342
 30
0.0
 10
208.051742
 20
97.563771
 30
0.0
 10
208.351801
 20
97.263713
 30
0.0
  0
SPLINE
  5
13c
100
AcDbEntity
  8
stabi_out
 62
1
100
AcDbSpline
 70
8
 71
3
 72
8
 73
4
 74
0
 40
0
 40
0
 40
0
 40
0
 40
1
 40
1
 40
1
 40
1
 10
208.351801
 20
97.263713
 30
0.0
 10
208.651859
 20
96.963654
 30
0.0
 10
208.820430
 20
96.556688
 30
0.0
 10
208.820430
 20
96.132341
 30
0.0
  0
LWPOLYLINE
  5
13d
100
AcDbEntity
  8
stabi_out
 62
1
100
AcDbPolyline
 90
1
 70
1
 10
224.471117
 20
173.205995
 30
0.0
  0
SPLINE
  5
13e
100
AcDbEntity
  8
stabi_out
 62
1
100
AcDbSpline
 70
8
 71
3
 72
8
 73
4
 74
0
 40
0
 40
0
 40
0
 40
0
 40
1
 40
1
 40
1
 40
1
 10
198.820426
 20
6.132303
 30
0.0
 10
198.820426
 20
5.707956
 30
0.0
 10
198.651855
 20
5.300990
 30
0.0
 10
198.351796
 20
5.000931
 30
0.0
  0
SPLINE
  5
13f
100
AcDbEntity
  8
stabi_out
 62
1
100
AcDbSpline
 70
8
 71
3
 72
8
 73
4
 74
0
 40
0
 40
0
 40
0
 40
0
 40
1
 40
1
 40
1
 40
1
 10
198.351796
 20
5.000931
 30
0.0
 10
198.051738
 20
4.700873
 30
0.0
 10
197.644772
 20
4.532302
 30
0.0
 10
197.220425
 20
4.532302
 30
0.0
  0
SPLINE
  5
140
100
AcDbEntity
  8
stabi_out
 62
1
100
AcDbSpline
 70
8
 71
3
 72
8
 73
4
 74
0
 40
0
 40
0
 40
0
 40
0
 40
1
 40
1
 40
1
 40
1
 10
197.220425
 20
4.532302
 30
0.0
 10
196.796079
 20
4.532302
 30
0.0
 10
196.389112
 20
4.700873
 30
0.0
 10
196.089054
 20
5.000931
 30
0.0
  0
SPLINE
  5
141
100
AcDbEntity
  8
stabi_out
 62
1
100
AcDbSpline
 70
8
 71
3
 72
8
 73
4
 74
0
 40
0
 40
0
 40
0
 40
0
 40
1
 40
1
 40
1
 40
1
 10
196.089054
 20
5.000931
 30
0.0
 10
195.788995
 20
5.300990
 30
0.0
 10
195.620424
 20
5.707956
 30
0.0
 10
195.620424
 20
6.132303
 30
0.0
  0
SPLINE
  5
142
100
AcDbEntity
  8
stabi_out
 62
1
100
AcDbSpline
 70
8
 71
3
 72
8
 73
4
 74
0
 40
0
 40
0
 40
0
 40
0
 40
1
 40
1
 40
1
 40
1
 10
195.620424
 20
6.132303
 30
0.0
 10
195.620424
 20
6.556649
 30
0.0
 10
195.788995
 20
6.963616
 30
0.0
 10
196.089054
 20
7.263674
 30
0.0
  0
SPLINE
  5
143
100
AcDbEntity
  8
stabi_out
 62
1
100
AcDbSpline
 70
8
 71
3
 72
8
 73
4
 74
0
 40
0
 40
0
 40
0
 40
0
 40
1
 40
1
 40
1
 40
1
 10
196.089054
 20
7.263674
 30
0.0
 10
196.389112
 20
7.563732
 30
0.0
 10
196.796079
 20
7.732303
 30
0.0
 10
197.220425
 20
7.732303
 30
0.0
  0
SPLINE
  5
144
100
AcDbEntity
  8
stabi_out
 62
1
100
AcDbSpline
 70
8
 71
3
 72
8
 73
4
 74
0
 40
0
 40
0
 40
0
 40
0
 40
1
 40
1
 40
1
 40
1
 10
197.220425
 20
7.732303
 30
0.0
 10
197.644772
 20
7.732303
 30
0.0
 10
198.051738
 20
7.563732
 30
0.0
 10
198.351796
 20
7.263674
 30
0.0
  0
SPLINE
  5
145
100
AcDbEntity
  8
stabi_out
 62
1
100
AcDbSpline
 70
8
 71
3
 72
8
 73
4
 74
0
 40
0
 40
0
 40
0
 40
0
 40
1
 40
1
 40
1
 40
1
 10
198.351796
 20
7.263674
 30
0.0
 10
198.651855
 20
6.963616
 30
0.0
 10
198.820426
 20
6.556649
 30
0.0
 10
198.820426
 20
6.132303
 30
0.0
  0
LWPOLYLINE
  5
146
100
AcDbEntity
  8
stabi_out
 62
1
100
AcDbPolyline
 90
1
 70
1
 10
208.820430
 20
96.132341
 30
0.0
  0
SPLINE
  5
147
100
AcDbEntity
  8
stabi_out
 62
1
100
AcDbSpline
 70
8
 71
3
 72
8
 73
4
 74
0
 40
0
 40
0
 40
0
 40
0
 40
1
 40
1
 40
1
 40
1
 10
116.101770
 20
6.132303
 30
0.0
 10
116.101770
 20
5.707956
 30
0.0
 10
115.933199
 20
5.300990
 30
0.0
 10
115.633141
 20
5.000931
 30
0.0
  0
SPLINE
  5
148
100
AcDbEntity
  8
stabi_out
 62
1
100
AcDbSpline
 70
8
 71
3
 72
8
 73
4
 74
0
 40
0
 40
0
 40
0
 40
0
 40
1
 40
1
 40
1
 40
1
 10
115.633141
 20
5.000931
 30
0.0
 10
115.333082
 20
4.700873
 30
0.0
 10
114.926116
 20
4.532302
 30
0.0
 10
114.501769
 20
4.532302
 30
0.0
  0
SPLINE
  5
149
100
AcDbEntity
  8
stabi_out
 62
1
100
AcDbSpline
 70
8
 71
3
 72
8
 73
4
 74
0
 40
0
 40
0
 40
0
 40
0
 40
1
 40
1
 40
1
 40
1
 10
114.501769
 20
4.532302
 30
0.0
 10
113.618113
 20
4.532302
 30
0.0
 10
112.901769
 20
5.248647
 30
0.0
 10
112.901769
 20
6.132303
 30
0.0
  0
SPLINE
  5
14a
100
AcDbEntity
  8
stabi_out
 62
1
100
AcDbSpline
 70
8
 71
3
 72
8
 73
4
 74
0
 40
0
 40
0
 40
0
 40
0
 40
1
 40
1
 40
1
 40
1
 10
112.901769
 20
6.132303
 30
0.0
 10
112.901769
 20
7.015959
 30
0.0
 10
113.618113
 20
7.732303
 30
0.0
 10
114.501769
 20
7.732303
 30
0.0
  0
SPLINE
  5
14b
100
AcDbEntity
  8
stabi_out
 62
1
100
AcDbSpline
 70
8
 71
3
 72
8
 73
4
 74
0
 40
0
 40
0
 40
0
 40
0
 40
1
 40
1
 40
1
 40
1
 10
114.501769
 20
7.732303
 30
0.0
 10
114.926116
 20
7.732303
 30
0.0
 10
115.333082
 20
7.563732
 30
0.0
 10
115.633141
 20
7.263674
 30
0.0
  0
SPLINE
  5
14c
100
AcDbEntity
  8
stabi_out
 62
1
100
AcDbSpline
 70
8
 71
3
 72
8
 73
4
 74
0
 40
0
 40
0
 40
0
 40
0
 40
1
 40
1
 40
1
 40
1
 10
115.633141
 20
7.263674
 30
0.0
 10
115.933199
 20
6.963616
 30
0.0
 10
116.101770
 20
6.556649
 30
0.0
 10
116.101770
 20
6.132303
 30
0.0
  0
LWPOLYLINE
  5
14d
100
AcDbEntity
  8
stabi_out
 62
1
100
AcDbPolyline
 90
1
 70
1
 10
198.820426
 20
6.132303
 30
0.0
  0
SPLINE
  5
14e
100
AcDbEntity
  8
stabi_out
 62
1
100
AcDbSpline
 70
8
 71
3
 72
8
 73
4
 74
0
 40
0
 40
0
 40
0
 40
0
 40
1
 40
1
 40
1
 40
1
 10
27.732113
 20
6.132303
 30
0.0
 10
27.732113
 20
5.707956
 30
0.0
 10
27.563542
 20
5.300990
 30
0.0
 10
27.263484
 20
5.000931
 30
0.0
  0
SPLINE
  5
14f
100
AcDbEntity
  8
stabi_out
 62
1
100
AcDbSpline
 70
8
 71
3
 72
8
 73
4
 74
0
 40
0
 40
0
 40
0
 40
0
 40
1
 40
1
 40
1
 40
1
 10
27.263484
 20
5.000931
 30
0.0
 10
26.963425
 20
4.700873
 30
0.0
 10
26.556459
 20
4.532302
 30
0.0
 10
26.132112
 20
4.532302
 30
0.0
  0
SPLINE
  5
150
100
AcDbEntity
  8
stabi_out
 62
1
100
AcDbSpline
 70
8
 71
3
 72
8
 73
4
 74
0
 40
0
 40
0
 40
0
 40
0
 40
1
 40
1
 40
1
 40
1
 10
26.132112
 20
4.532302
 30
0.0
 10
25.707766
 20
4.532302
 30
0.0
 10
25.300799
 20
4.700873
 30
0.0
 10
25.000741
 20
5.000931
 30
0.0
  0
SPLINE
  5
151
100
AcDbEntity
  8
stabi_out
 62
1
100
AcDbSpline
 70
8
 71
3
 72
8
 73
4
 74
0
 40
0
 40
0
 40
0
 40
0
 40
1
 40
1
 40
1
 40
1
 10
25.000741
 20
5.000931
 30
0.0
 10
24.700683
 20
5.300990
 30
0.0
 10
24.532112
 20
5.707956
 30
0.0
 10
24.532112
 20
6.132303
 30
0.0
  0
SPLINE
  5
152
100
AcDbEntity
  8
stabi_out
 62
1
100
AcDbSpline
 70
8
 71
3
 72
8
 73
4
 74
0
 40
0
 40
0
 40
0
 40
0
 40
1
 40
1
 40
1
 40
1
 10
24.532112
 20
6.132303
 30
0.0
 10
24.532112
 20
6.556649
 30
0.0
 10
24.700683
 20
6.963616
 30
0.0
 10
25.000741
 20
7.263674
 30
0.0
  0
SPLINE
  5
153
100
AcDbEntity
  8
stabi_out
 62
1
100
AcDbSpline
 70
8
 71
3
 72
8
 73
4
 74
0
 40
0
 40
0
 40
0
 40
0
 40
1
 40
1
 40
1
 40
1
 10
25.000741
 20
7.263674
 30
0.0
 10
25.300799
 20
7.563732
 30
0.0
 10
25.707766
 20
7.732303
 30
0.0
 10
26.132112
 20
7.732303
 30
0.0
  0
SPLINE
  5
154
100
AcDbEntity
  8
stabi_out
 62
1
100
AcDbSpline
 70
8
 71
3
 72
8
 73
4
 74
0
 40
0
 40
0
 40
0
 40
0
 40
1
 40
1
 40
1
 40
1
 10
26.132112
 20
7.732303
 30
0.0
 10
26.556459
 20
7.732303
 30
0.0
 10
26.963425
 20
7.563732
 30
0.0
 10
27.263484
 20
7.263674
 30
0.0
  0
SPLINE
  5
155
100
AcDbEntity
  8
stabi_out
 62
1
100
AcDbSpline
 70
8
 71
3
 72
8
 73
4
 74
0
 40
0
 40
0
 40
0
 40
0
 40
1
 40
1
 40
1
 40
1
 10
27.263484
 20
7.263674
 30
0.0
 10
27.563542
 20
6.963616
 30
0.0
 10
27.732113
 20
6.556649
 30
0.0
 10
27.732113
 20
6.132303
 30
0.0
  0
LWPOLYLINE
  5
156
100
AcDbEntity
  8
stabi_out
 62
1
100
AcDbPolyline
 90
1
 70
1
 10
116.101770
 20
6.132303
 30
0.0
  0
SPLINE
  5
157
100
AcDbEntity
  8
stabi_out
 62
1
100
AcDbSpline
 70
8
 71
3
 72
8
 73
4
 74
0
 40
0
 40
0
 40
0
 40
0
 40
1
 40
1
 40
1
 40
1
 10
17.732109
 20
96.132341
 30
0.0
 10
17.732109
 20
95.707995
 30
0.0
 10
17.563538
 20
95.301028
 30
0.0
 10
17.263479
 20
95.000970
 30
0.0
  0
SPLINE
  5
158
100
AcDbEntity
  8
stabi_out
 62
1
100
AcDbSpline
 70
8
 71
3
 72
8
 73
4
 74
0
 40
0
 40
0
 40
0
 40
0
 40
1
 40
1
 40
1
 40
1
 10
17.263479
 20
95.000970
 30
0.0
 10
16.963421
 20
94.700912
 30
0.0
 10
16.556455
 20
94.532341
 30
0.0
 10
16.132108
 20
94.532341
 30
0.0
  0
SPLINE
  5
159
100
AcDbEntity
  8
stabi_out
 62
1
100
AcDbSpline
 70
8
 71
3
 72
8
 73
4
 74
0
 40
0
 40
0
 40
0
 40
0
 40
1
 40
1
 40
1
 40
1
 10
16.132108
 20
94.532341
 30
0.0
 10
15.707761
 20
94.532341
 30
0.0
 10
15.300795
 20
94.700912
 30
0.0
 10
15.000737
 20
95.000970
 30
0.0
  0
SPLINE
  5
15a
100
AcDbEntity
  8
stabi_out
 62
1
100
AcDbSpline
 70
8
 71
3
 72
8
 73
4
 74
0
 40
0
 40
0
 40
0
 40
0
 40
1
 40
1
 40
1
 40
1
 10
15.000737
 20
95.000970
 30
0.0
 10
14.700678
 20
95.301028
 30
0.0
 10
14.532107
 20
95.707995
 30
0.0
 10
14.532107
 20
96.132341
 30
0.0
  0
SPLINE
  5
15b
100
AcDbEntity
  8
stabi_out
 62
1
100
AcDbSpline
 70
8
 71
3
 72
8
 73
4
 74
0
 40
0
 40
0
 40
0
 40
0
 40
1
 40
1
 40
1
 40
1
 10
14.532107
 20
96.132341
 30
0.0
 10
14.532107
 20
96.556688
 30
0.0
 10
14.700678
 20
96.963654
 30
0.0
 10
15.000737
 20
97.263713
 30
0.0
  0
SPLINE
  5
15c
100
AcDbEntity
  8
stabi_out
 62
1
100
AcDbSpline
 70
8
 71
3
 72
8
 73
4
 74
0
 40
0
 40
0
 40
0
 40
0
 40
1
 40
1
 40
1
 40
1
 10
15.000737
 20
97.263713
 30
0.0
 10
15.300795
 20
97.563771
 30
0.0
 10
15.707761
 20
97.732342
 30
0.0
 10
16.132108
 20
97.732342
 30
0.0
  0
SPLINE
  5
15d
100
AcDbEntity
  8
stabi_out
 62
1
100
AcDbSpline
 70
8
 71
3
 72
8
 73
4
 74
0
 40
0
 40
0
 40
0
 40
0
 40
1
 40
1
 40
1
 40
1
 10
16.132108
 20
97.732342
 30
0.0
 10
17.015764
 20
97.732342
 30
0.0
 10
17.732109
 20
97.015997
 30
0.0
 10
17.732109
 20
96.132341
 30
0.0
  0
LWPOLYLINE
  5
15e
100
AcDbEntity
  8
stabi_out
 62
1
100
AcDbPolyline
 90
1
 70
1
 10
27.732113
 20
6.132303
 30
0.0
  0
SPLINE
  5
15f
100
AcDbEntity
  8
stabi_out
 62
1
100
AcDbSpline
 70
8
 71
3
 72
8
 73
4
 74
0
 40
0
 40
0
 40
0
 40
0
 40
1
 40
1
 40
1
 40
1
 10
116.101770
 20
96.132341
 30
0.0
 10
116.101770
 20
95.707995
 30
0.0
 10
115.933199
 20
95.301028
 30
0.0
 10
115.633141
 20
95.000970
 30
0.0
  0
SPLINE
  5
160
100
AcDbEntity
  8
stabi_out
 62
1
100
AcDbSpline
 70
8
 71
3
 72
8
 73
4
 74
0
 40
0
 40
0
 40
0
 40
0
 40
1
 40
1
 40
1
 40
1
 10
115.633141
 20
95.000970
 30
0.0
 10
115.333082
 20
94.700912
 30
0.0
 10
114.926116
 20
94.532341
 30
0.0
 10
114.501769
 20
94.532341
 30
0.0
  0
SPLINE
  5
161
100
AcDbEntity
  8
stabi_out
 62
1
100
AcDbSpline
 70
8
 71
3
 72
8
 73
4
 74
0
 40
0
 40
0
 40
0
 40
0
 40
1
 40
1
 40
1
 40
1
 10
114.501769
 20
94.532341
 30
0.0
 10
113.618113
 20
94.532341
 30
0.0
 10
112.901769
 20
95.248685
 30
0.0
 10
112.901769
 20
96.132341
 30
0.0
  0
SPLINE
  5
162
100
AcDbEntity
  8
stabi_out
 62
1
100
AcDbSpline
 70
8
 71
3
 72
8
 73
4
 74
0
 40
0
 40
0
 40
0
 40
0
 40
1
 40
1
 40
1
 40
1
 10
112.901769
 20
96.132341
 30
0.0
 10
112.901769
 20
97.015997
 30
0.0
 10
113.618113
 20
97.732342
 30
0.0
 10
114.501769
 20
97.732342
 30
0.0
  0
SPLINE
  5
163
100
AcDbEntity
  8
stabi_out
 62
1
100
AcDbSpline
 70
8
 71
3
 72
8
 73
4
 74
0
 40
0
 40
0
 40
0
 40
0
 40
1
 40
1
 40
1
 40
1
 10
114.501769
 20
97.732342
 30
0.0
 10
114.926116
 20
97.732342
 30
0.0
 10
115.333082
 20
97.563771
 30
0.0
 10
115.633141
 20
97.263713
 30
0.0
  0
SPLINE
  5
164
100
AcDbEntity
  8
stabi_out
 62
1
100
AcDbSpline
 70
8
 71
3
 72
8
 73
4
 74
0
 40
0
 40
0
 40
0
 40
0
 40
1
 40
1
 40
1
 40
1
 10
115.633141
 20
97.263713
 30
0.0
 10
115.933199
 20
96.963654
 30
0.0
 10
116.101770
 20
96.556688
 30
0.0
 10
116.101770
 20
96.132341
 30
0.0
  0
LWPOLYLINE
  5
165
100
AcDbEntity
  8
stabi_out
 62
1
100
AcDbPolyline
 90
1
 70
1
 10
17.732109
 20
96.132341
 30
0.0
  0
LWPOLYLINE
  5
166
100
AcDbEntity
  8
stabi_out
 62
1
100
AcDbPolyline
 90
1
 70
1
 10
116.101770
 20
96.132341
 30
0.0
  0
ENDSEC
  0
SECTION
  2
OBJECTS
  0
DICTIONARY
  5
C
330
0
100
AcDbDictionary
  3
ACAD_GROUP
350
D
  3
ACAD_MLINESTYLE
350
17
  0
DICTIONARY
  5
D
330
C
100
AcDbDictionary
  0
DICTIONARY
  5
1A
330
C
100
AcDbDictionary
  0
DICTIONARY
  5
17
330
C
100
AcDbDictionary
  3
STANDARD
350
18
  0
DICTIONARY
  5
19
330
C
100
AcDbDictionary
  0
ENDSEC
  0
EOF
