  0
SECTION
  2
HEADER
  9
$ACADVER
  1
AC1014
  9
$HANDSEED
  5
FFFF
  9
$MEASUREMENT
 70
     1
  0
ENDSEC
  0
SECTION
  2
TABLES
  0
TABLE
  2
VPORT
  5
8
330
0
100
AcDbSymbolTable
 70
     4
  0
VPORT
  5
2E
330
8
100
AcDbSymbolTableRecord
100
AcDbViewportTableRecord
  2
*ACTIVE
 70
     0
 10
0.0
 20
0.0
 11
1.0
 21
1.0
 12
210.0
 22
148.5
 13
0.0
 23
0.0
 14
10.0
 24
10.0
 15
10.0
 25
10.0
 16
0.0
 26
0.0
 36
1.0
 17
0.0
 27
0.0
 37
0.0
 40
341.0
 41
1.24
 42
50.0
 43
0.0
 44
0.0
 50
0.0
 51
0.0
 71
     0
 72
   100
 73
     1
 74
     3
 75
     0
 76
     0
 77
     0
 78
     0
  0
ENDTAB
  0
TABLE
  2
LTYPE
  5
5
330
0
100
AcDbSymbolTable
 70
     1
  0
LTYPE
  5
14
330
5
100
AcDbSymbolTableRecord
100
AcDbLinetypeTableRecord
  2
BYBLOCK
 70
     0
  3

 72
    65
 73
     0
 40
0.0
  0
LTYPE
  5
15
330
5
100
AcDbSymbolTableRecord
100
AcDbLinetypeTableRecord
  2
BYLAYER
 70
     0
  3

 72
    65
 73
     0
 40
0.0
  0
LTYPE
  5
16
330
5
100
AcDbSymbolTableRecord
100
AcDbLinetypeTableRecord
  2
CONTINUOUS
 70
     0
  3
Solid line
 72
    65
 73
     0
 40
0.0
  0
ENDTAB
  0
TABLE
  2
LAYER
  5
2
100
AcDbSymbolTable
 70
2
  0
LAYER
  5
50
100
AcDbSymbolTableRecord
100
AcDbLayerTableRecord
  2
0
 70
0
  6
CONTINUOUS
  0
LAYER
  5
51
100
AcDbSymbolTableRecord
100
AcDbLayerTableRecord
  2
Switches
 70
0
  6
CONTINUOUS
  0
ENDTAB
  0
TABLE
  2
STYLE
  5
3
330
0
100
AcDbSymbolTable
 70
     1
  0
STYLE
  5
11
330
3
100
AcDbSymbolTableRecord
100
AcDbTextStyleTableRecord
  2
STANDARD
 70
     0
 40
0.0
 41
1.0
 50
0.0
 71
     0
 42
2.5
  3
txt
  4

  0
ENDTAB
  0
TABLE
  2
VIEW
  5
6
330
0
100
AcDbSymbolTable
 70
     0
  0
ENDTAB
  0
TABLE
  2
UCS
  5
7
330
0
100
AcDbSymbolTable
 70
     0
  0
ENDTAB
  0
TABLE
  2
APPID
  5
9
330
0
100
AcDbSymbolTable
 70
     2
  0
APPID
  5
12
330
9
100
AcDbSymbolTableRecord
100
AcDbRegAppTableRecord
  2
ACAD
 70
     0
  0
ENDTAB
  0
TABLE
  2
DIMSTYLE
  5
A
330
0
100
AcDbSymbolTable
 70
     1
  0
DIMSTYLE
105
27
330
A
100
AcDbSymbolTableRecord
100
AcDbDimStyleTableRecord
  2
ISO-25
 70
     0
  3

  4

  5

  6

  7

 40
1.0
 41
2.5
 42
0.625
 43
3.75
 44
1.25
 45
0.0
 46
0.0
 47
0.0
 48
0.0
140
2.5
141
2.5
142
0.0
143
0.03937007874016
144
1.0
145
0.0
146
1.0
147
0.625
 71
     0
 72
     0
 73
     0
 74
     0
 75
     0
 76
     0
 77
     1
 78
     8
170
     0
171
     3
172
     1
173
     0
174
     0
175
     0
176
     0
177
     0
178
     0
270
     2
271
     2
272
     2
273
     2
274
     3
340
11
275
     0
280
     0
281
     0
282
     0
283
     0
284
     8
285
     0
286
     0
287
     3
288
     0
  0
ENDTAB
  0
TABLE
  2
BLOCK_RECORD
  5
1
330
0
100
AcDbSymbolTable
 70
     1
  0
BLOCK_RECORD
  5
1F
330
1
100
AcDbSymbolTableRecord
100
AcDbBlockTableRecord
  2
*MODEL_SPACE
  0
BLOCK_RECORD
  5
1B
330
1
100
AcDbSymbolTableRecord
100
AcDbBlockTableRecord
  2
*PAPER_SPACE
  0
ENDTAB
  0
ENDSEC
  0
SECTION
  2
BLOCKS
  0
BLOCK
  5
20
330
1F
100
AcDbEntity
  8
0
100
AcDbBlockBegin
  2
*MODEL_SPACE
 70
     0
 10
0.0
 20
0.0
 30
0.0
  3
*MODEL_SPACE
  1

  0
ENDBLK
  5
21
330
1F
100
AcDbEntity
  8
0
100
AcDbBlockEnd
  0
BLOCK
  5
1C
330
1B
100
AcDbEntity
 67
     1
  8
0
100
AcDbBlockBegin
  2
*PAPER_SPACE
  1

  0
ENDBLK
  5
1D
330
1B
100
AcDbEntity
 67
     1
  8
0
100
AcDbBlockEnd
  0
ENDSEC
  0
SECTION
  2
ENTITIES
  0
LWPOLYLINE
  5
100
100
AcDbEntity
  8
Switches
 62
7
100
AcDbPolyline
 90
36
 70
1
 10
170.589593
 20
122.187595
 30
0.0
 10
170.589593
 20
117.487593
 30
0.0
 10
161.914589
 20
117.487593
 30
0.0
 10
161.914589
 20
120.717594
 30
0.0
 10
155.164586
 20
120.717594
 30
0.0
 10
155.164586
 20
117.487593
 30
0.0
 10
154.339586
 20
117.487593
 30
0.0
 10
154.339586
 20
114.687592
 30
0.0
 10
155.164586
 20
114.687592
 30
0.0
 10
155.164586
 20
108.418589
 30
0.0
 10
156.889587
 20
108.418589
 30
0.0
 10
156.889587
 20
107.217589
 30
0.0
 10
160.189589
 20
107.217589
 30
0.0
 10
160.189589
 20
108.418589
 30
0.0
 10
161.914589
 20
108.418589
 30
0.0
 10
161.914589
 20
112.888591
 30
0.0
 10
170.589593
 20
112.888591
 30
0.0
 10
170.589593
 20
108.187589
 30
0.0
 10
184.589599
 20
108.187589
 30
0.0
 10
184.589599
 20
112.888591
 30
0.0
 10
193.264602
 20
112.888591
 30
0.0
 10
193.264602
 20
108.418589
 30
0.0
 10
194.989603
 20
108.418589
 30
0.0
 10
194.989603
 20
107.217589
 30
0.0
 10
198.289604
 20
107.217589
 30
0.0
 10
198.289604
 20
108.418589
 30
0.0
 10
200.014605
 20
108.418589
 30
0.0
 10
200.014605
 20
114.687592
 30
0.0
 10
200.839605
 20
114.687592
 30
0.0
 10
200.839605
 20
117.487593
 30
0.0
 10
200.014605
 20
117.487593
 30
0.0
 10
200.014605
 20
120.717594
 30
0.0
 10
193.264602
 20
120.717594
 30
0.0
 10
193.264602
 20
117.487593
 30
0.0
 10
184.589599
 20
117.487593
 30
0.0
 10
184.589599
 20
122.187595
 30
0.0
  0
LWPOLYLINE
  5
101
100
AcDbEntity
  8
Switches
 62
7
100
AcDbPolyline
 90
4
 70
1
 10
130.107576
 20
122.187595
 30
0.0
 10
130.107576
 20
108.187589
 30
0.0
 10
144.107582
 20
108.187589
 30
0.0
 10
144.107582
 20
122.187595
 30
0.0
  0
LWPOLYLINE
  5
102
100
AcDbEntity
  8
Switches
 62
7
100
AcDbPolyline
 90
4
 70
1
 10
106.295566
 20
122.187595
 30
0.0
 10
106.295566
 20
108.187589
 30
0.0
 10
120.295572
 20
108.187589
 30
0.0
 10
120.295572
 20
122.187595
 30
0.0
  0
LWPOLYLINE
  5
103
100
AcDbEntity
  8
Switches
 62
7
100
AcDbPolyline
 90
4
 70
1
 10
82.482556
 20
122.187595
 30
0.0
 10
82.482556
 20
108.187589
 30
0.0
 10
96.482562
 20
108.187589
 30
0.0
 10
96.482562
 20
122.187595
 30
0.0
  0
LWPOLYLINE
  5
104
100
AcDbEntity
  8
Switches
 62
7
100
AcDbPolyline
 90
4
 70
1
 10
56.289545
 20
122.187595
 30
0.0
 10
56.289545
 20
108.187589
 30
0.0
 10
70.289551
 20
108.187589
 30
0.0
 10
70.289551
 20
122.187595
 30
0.0
  0
LWPOLYLINE
  5
105
100
AcDbEntity
  8
Switches
 62
7
100
AcDbPolyline
 90
4
 70
1
 10
37.239537
 20
122.187595
 30
0.0
 10
37.239537
 20
108.187589
 30
0.0
 10
51.239543
 20
108.187589
 30
0.0
 10
51.239543
 20
122.187595
 30
0.0
  0
LWPOLYLINE
  5
106
100
AcDbEntity
  8
Switches
 62
7
100
AcDbPolyline
 90
4
 70
1
 10
18.189530
 20
122.187595
 30
0.0
 10
18.189530
 20
108.187589
 30
0.0
 10
32.189535
 20
108.187589
 30
0.0
 10
32.189535
 20
122.187595
 30
0.0
  0
LWPOLYLINE
  5
107
100
AcDbEntity
  8
Switches
 62
7
100
AcDbPolyline
 90
4
 70
1
 10
199.164605
 20
141.237603
 30
0.0
 10
199.164605
 20
127.237597
 30
0.0
 10
213.164611
 20
127.237597
 30
0.0
 10
213.164611
 20
141.237603
 30
0.0
  0
LWPOLYLINE
  5
108
100
AcDbEntity
  8
Switches
 62
7
100
AcDbPolyline
 90
4
 70
1
 10
180.114597
 20
141.237603
 30
0.0
 10
180.114597
 20
127.237597
 30
0.0
 10
194.114603
 20
127.237597
 30
0.0
 10
194.114603
 20
141.237603
 30
0.0
  0
LWPOLYLINE
  5
109
100
AcDbEntity
  8
Switches
 62
7
100
AcDbPolyline
 90
4
 70
1
 10
161.064589
 20
141.237603
 30
0.0
 10
161.064589
 20
127.237597
 30
0.0
 10
175.064595
 20
127.237597
 30
0.0
 10
175.064595
 20
141.237603
 30
0.0
  0
LWPOLYLINE
  5
10a
100
AcDbEntity
  8
Switches
 62
7
100
AcDbPolyline
 90
4
 70
1
 10
142.014581
 20
141.237603
 30
0.0
 10
142.014581
 20
127.237597
 30
0.0
 10
156.014587
 20
127.237597
 30
0.0
 10
156.014587
 20
141.237603
 30
0.0
  0
LWPOLYLINE
  5
10b
100
AcDbEntity
  8
Switches
 62
7
100
AcDbPolyline
 90
4
 70
1
 10
122.964573
 20
141.237603
 30
0.0
 10
122.964573
 20
127.237597
 30
0.0
 10
136.964579
 20
127.237597
 30
0.0
 10
136.964579
 20
141.237603
 30
0.0
  0
LWPOLYLINE
  5
10c
100
AcDbEntity
  8
Switches
 62
7
100
AcDbPolyline
 90
4
 70
1
 10
103.914565
 20
141.237603
 30
0.0
 10
103.914565
 20
127.237597
 30
0.0
 10
117.914571
 20
127.237597
 30
0.0
 10
117.914571
 20
141.237603
 30
0.0
  0
LWPOLYLINE
  5
10d
100
AcDbEntity
  8
Switches
 62
7
100
AcDbPolyline
 90
4
 70
1
 10
82.482556
 20
141.237603
 30
0.0
 10
82.482556
 20
127.237597
 30
0.0
 10
96.482562
 20
127.237597
 30
0.0
 10
96.482562
 20
141.237603
 30
0.0
  0
LWPOLYLINE
  5
10e
100
AcDbEntity
  8
Switches
 62
7
100
AcDbPolyline
 90
4
 70
1
 10
37.238537
 20
141.237603
 30
0.0
 10
37.238537
 20
127.237597
 30
0.0
 10
51.238543
 20
127.237597
 30
0.0
 10
51.238543
 20
141.237603
 30
0.0
  0
LWPOLYLINE
  5
10f
100
AcDbEntity
  8
Switches
 62
7
100
AcDbPolyline
 90
4
 70
1
 10
189.639601
 20
160.287611
 30
0.0
 10
189.639601
 20
146.287605
 30
0.0
 10
203.639607
 20
146.287605
 30
0.0
 10
203.639607
 20
160.287611
 30
0.0
  0
LWPOLYLINE
  5
110
100
AcDbEntity
  8
Switches
 62
7
100
AcDbPolyline
 90
4
 70
1
 10
170.589593
 20
160.287611
 30
0.0
 10
170.589593
 20
146.287605
 30
0.0
 10
184.589599
 20
146.287605
 30
0.0
 10
184.589599
 20
160.287611
 30
0.0
  0
LWPOLYLINE
  5
111
100
AcDbEntity
  8
Switches
 62
7
100
AcDbPolyline
 90
4
 70
1
 10
151.539585
 20
160.287611
 30
0.0
 10
151.539585
 20
146.287605
 30
0.0
 10
165.539591
 20
146.287605
 30
0.0
 10
165.539591
 20
160.287611
 30
0.0
  0
LWPOLYLINE
  5
112
100
AcDbEntity
  8
Switches
 62
7
100
AcDbPolyline
 90
4
 70
1
 10
132.489577
 20
160.287611
 30
0.0
 10
132.489577
 20
146.287605
 30
0.0
 10
146.489583
 20
146.287605
 30
0.0
 10
146.489583
 20
160.287611
 30
0.0
  0
LWPOLYLINE
  5
113
100
AcDbEntity
  8
Switches
 62
7
100
AcDbPolyline
 90
4
 70
1
 10
113.439569
 20
160.287611
 30
0.0
 10
113.439569
 20
146.287605
 30
0.0
 10
127.439575
 20
146.287605
 30
0.0
 10
127.439575
 20
160.287611
 30
0.0
  0
LWPOLYLINE
  5
114
100
AcDbEntity
  8
Switches
 62
7
100
AcDbPolyline
 90
4
 70
1
 10
87.245558
 20
160.287611
 30
0.0
 10
87.245558
 20
146.287605
 30
0.0
 10
101.245564
 20
146.287605
 30
0.0
 10
101.245564
 20
160.287611
 30
0.0
  0
LWPOLYLINE
  5
115
100
AcDbEntity
  8
Switches
 62
7
100
AcDbPolyline
 90
4
 70
1
 10
184.876599
 20
179.337619
 30
0.0
 10
184.876599
 20
165.337613
 30
0.0
 10
198.876605
 20
165.337613
 30
0.0
 10
198.876605
 20
179.337619
 30
0.0
  0
LWPOLYLINE
  5
116
100
AcDbEntity
  8
Switches
 62
7
100
AcDbPolyline
 90
4
 70
1
 10
165.826591
 20
179.337619
 30
0.0
 10
165.826591
 20
165.337613
 30
0.0
 10
179.826597
 20
165.337613
 30
0.0
 10
179.826597
 20
179.337619
 30
0.0
  0
LWPOLYLINE
  5
117
100
AcDbEntity
  8
Switches
 62
7
100
AcDbPolyline
 90
4
 70
1
 10
146.776583
 20
179.337619
 30
0.0
 10
146.776583
 20
165.337613
 30
0.0
 10
160.776589
 20
165.337613
 30
0.0
 10
160.776589
 20
179.337619
 30
0.0
  0
LWPOLYLINE
  5
118
100
AcDbEntity
  8
Switches
 62
7
100
AcDbPolyline
 90
4
 70
1
 10
127.726575
 20
179.337619
 30
0.0
 10
127.726575
 20
165.337613
 30
0.0
 10
141.726581
 20
165.337613
 30
0.0
 10
141.726581
 20
179.337619
 30
0.0
  0
LWPOLYLINE
  5
119
100
AcDbEntity
  8
Switches
 62
7
100
AcDbPolyline
 90
4
 70
1
 10
108.676567
 20
179.337619
 30
0.0
 10
108.676567
 20
165.337613
 30
0.0
 10
122.676573
 20
165.337613
 30
0.0
 10
122.676573
 20
179.337619
 30
0.0
  0
LWPOLYLINE
  5
11a
100
AcDbEntity
  8
Switches
 62
7
100
AcDbPolyline
 90
4
 70
1
 10
84.864557
 20
179.337619
 30
0.0
 10
84.864557
 20
165.337613
 30
0.0
 10
98.864563
 20
165.337613
 30
0.0
 10
98.864563
 20
179.337619
 30
0.0
  0
LWPOLYLINE
  5
11b
100
AcDbEntity
  8
Switches
 62
7
100
AcDbPolyline
 90
4
 70
1
 10
56.289545
 20
179.337619
 30
0.0
 10
56.289545
 20
165.337613
 30
0.0
 10
70.289551
 20
165.337613
 30
0.0
 10
70.289551
 20
179.337619
 30
0.0
  0
LWPOLYLINE
  5
11c
100
AcDbEntity
  8
Switches
 62
7
100
AcDbPolyline
 90
4
 70
1
 10
37.239537
 20
179.337619
 30
0.0
 10
37.239537
 20
165.337613
 30
0.0
 10
51.239543
 20
165.337613
 30
0.0
 10
51.239543
 20
179.337619
 30
0.0
  0
LWPOLYLINE
  5
11d
100
AcDbEntity
  8
Switches
 62
7
100
AcDbPolyline
 90
4
 70
1
 10
18.189530
 20
179.337619
 30
0.0
 10
18.189530
 20
165.337613
 30
0.0
 10
32.189535
 20
165.337613
 30
0.0
 10
32.189535
 20
179.337619
 30
0.0
  0
LWPOLYLINE
  5
11e
100
AcDbEntity
  8
Switches
 62
7
100
AcDbPolyline
 90
4
 70
1
 10
194.401603
 20
198.387626
 30
0.0
 10
194.401603
 20
184.387621
 30
0.0
 10
208.401609
 20
184.387621
 30
0.0
 10
208.401609
 20
198.387626
 30
0.0
  0
LWPOLYLINE
  5
11f
100
AcDbEntity
  8
Switches
 62
7
100
AcDbPolyline
 90
4
 70
1
 10
175.351595
 20
198.387626
 30
0.0
 10
175.351595
 20
184.387621
 30
0.0
 10
189.351601
 20
184.387621
 30
0.0
 10
189.351601
 20
198.387626
 30
0.0
  0
LWPOLYLINE
  5
120
100
AcDbEntity
  8
Switches
 62
7
100
AcDbPolyline
 90
4
 70
1
 10
156.301587
 20
198.387626
 30
0.0
 10
156.301587
 20
184.387621
 30
0.0
 10
170.301593
 20
184.387621
 30
0.0
 10
170.301593
 20
198.387626
 30
0.0
  0
LWPOLYLINE
  5
121
100
AcDbEntity
  8
Switches
 62
7
100
AcDbPolyline
 90
4
 70
1
 10
137.251579
 20
198.387626
 30
0.0
 10
137.251579
 20
184.387621
 30
0.0
 10
151.251585
 20
184.387621
 30
0.0
 10
151.251585
 20
198.387626
 30
0.0
  0
LWPOLYLINE
  5
122
100
AcDbEntity
  8
Switches
 62
7
100
AcDbPolyline
 90
4
 70
1
 10
118.201571
 20
198.387626
 30
0.0
 10
118.201571
 20
184.387621
 30
0.0
 10
132.201577
 20
184.387621
 30
0.0
 10
132.201577
 20
198.387626
 30
0.0
  0
LWPOLYLINE
  5
123
100
AcDbEntity
  8
Switches
 62
7
100
AcDbPolyline
 90
4
 70
1
 10
99.151563
 20
198.387626
 30
0.0
 10
99.151563
 20
184.387621
 30
0.0
 10
113.151569
 20
184.387621
 30
0.0
 10
113.151569
 20
198.387626
 30
0.0
  0
LWPOLYLINE
  5
124
100
AcDbEntity
  8
Switches
 62
7
100
AcDbPolyline
 90
4
 70
1
 10
80.101555
 20
198.387626
 30
0.0
 10
80.101555
 20
184.387621
 30
0.0
 10
94.101561
 20
184.387621
 30
0.0
 10
94.101561
 20
198.387626
 30
0.0
  0
LWPOLYLINE
  5
125
100
AcDbEntity
  8
Switches
 62
7
100
AcDbPolyline
 90
4
 70
1
 10
56.289545
 20
198.387626
 30
0.0
 10
56.289545
 20
184.387621
 30
0.0
 10
70.289551
 20
184.387621
 30
0.0
 10
70.289551
 20
198.387626
 30
0.0
  0
LWPOLYLINE
  5
126
100
AcDbEntity
  8
Switches
 62
7
100
AcDbPolyline
 90
4
 70
1
 10
37.239537
 20
198.387626
 30
0.0
 10
37.239537
 20
184.387621
 30
0.0
 10
51.239543
 20
184.387621
 30
0.0
 10
51.239543
 20
198.387626
 30
0.0
  0
LWPOLYLINE
  5
127
100
AcDbEntity
  8
Switches
 62
7
100
AcDbPolyline
 90
4
 70
1
 10
18.189530
 20
198.387626
 30
0.0
 10
18.189530
 20
184.387621
 30
0.0
 10
32.189535
 20
184.387621
 30
0.0
 10
32.189535
 20
198.387626
 30
0.0
  0
LWPOLYLINE
  5
128
100
AcDbEntity
  8
Switches
 62
7
100
AcDbPolyline
 90
10
 70
1
 10
231.877470
 20
185.278832
 30
0.0
 10
231.871170
 20
201.452889
 30
0.0
 10
211.197127
 20
201.444889
 30
0.0
 10
211.205027
 20
177.205998
 30
0.0
 10
216.220497
 20
177.205997
 30
0.0
 10
216.220497
 20
185.272831
 30
0.0
 10
219.866537
 20
185.273931
 30
0.0
 10
219.866537
 20
181.240512
 30
0.0
 10
223.270160
 20
181.241402
 30
0.0
 10
223.268560
 20
185.275701
 30
0.0
  0
LWPOLYLINE
  5
129
100
AcDbEntity
  8
Switches
 62
7
100
AcDbPolyline
 90
4
 70
1
 10
229.645928
 20
201.123091
 30
0.0
 10
228.445927
 20
201.123085
 30
0.0
 10
228.446003
 20
185.623078
 30
0.0
 10
229.646004
 20
185.623084
 30
0.0
  0
LWPOLYLINE
  5
12a
100
AcDbEntity
  8
Switches
 62
7
100
AcDbPolyline
 90
4
 70
1
 10
72.828942
 20
211.440568
 30
0.0
 10
78.730180
 20
211.440568
 30
0.0
 10
78.730180
 20
201.459616
 30
0.0
 10
72.828942
 20
201.459616
 30
0.0
  0
SPLINE
  5
12b
100
AcDbEntity
  8
Switches
 62
7
100
AcDbSpline
 70
8
 71
3
 72
8
 73
4
 74
0
 40
0
 40
0
 40
0
 40
0
 40
1
 40
1
 40
1
 40
1
 10
24.237855
 20
10.051648
 30
0.0
 10
24.755800
 20
7.202952
 30
0.0
 10
27.236885
 20
5.132296
 30
0.0
 10
30.132285
 20
5.132296
 30
0.0
  0
LWPOLYLINE
  5
12c
100
AcDbEntity
  8
Switches
 62
7
100
AcDbPolyline
 90
2
 70
0
 10
6.026701
 20
110.212990
 30
0.0
 10
24.237855
 20
10.051648
 30
0.0
  0
SPLINE
  5
12d
100
AcDbEntity
  8
Switches
 62
7
100
AcDbSpline
 70
8
 71
3
 72
8
 73
4
 74
0
 40
0
 40
0
 40
0
 40
0
 40
1
 40
1
 40
1
 40
1
 10
201.220246
 20
5.132296
 30
0.0
 10
204.094709
 20
5.132297
 30
0.0
 10
206.537179
 20
7.234069
 30
0.0
 10
206.965788
 20
10.076398
 30
0.0
  0
LWPOLYLINE
  5
12e
100
AcDbEntity
  8
Switches
 62
7
100
AcDbPolyline
 90
2
 70
0
 10
30.132285
 20
5.132296
 30
0.0
 10
201.220246
 20
5.132296
 30
0.0
  0
SPLINE
  5
12f
100
AcDbEntity
  8
Switches
 62
7
100
AcDbSpline
 70
8
 71
3
 72
8
 73
4
 74
0
 40
0
 40
0
 40
0
 40
0
 40
1
 40
1
 40
1
 40
1
 10
231.131778
 20
170.334584
 30
0.0
 10
231.628107
 20
173.626026
 30
0.0
 10
231.877041
 20
176.950039
 30
0.0
 10
231.876488
 20
180.278692
 30
0.0
  0
LWPOLYLINE
  5
130
100
AcDbEntity
  8
Switches
 62
7
100
AcDbPolyline
 90
2
 70
0
 10
206.965788
 20
10.076398
 30
0.0
 10
231.131778
 20
170.334584
 30
0.0
  0
SPLINE
  5
131
100
AcDbEntity
  8
Switches
 62
7
100
AcDbSpline
 70
8
 71
3
 72
8
 73
4
 74
0
 40
0
 40
0
 40
0
 40
0
 40
1
 40
1
 40
1
 40
1
 10
231.872488
 20
206.444884
 30
0.0
 10
231.872030
 20
209.206576
 30
0.0
 10
229.633008
 20
211.445074
 30
0.0
 10
226.871316
 20
211.444886
 30
0.0
  0
LWPOLYLINE
  5
132
100
AcDbEntity
  8
Switches
 62
7
100
AcDbPolyline
 90
2
 70
0
 10
231.876488
 20
180.278692
 30
0.0
 10
231.872488
 20
206.444884
 30
0.0
  0
SPLINE
  5
133
100
AcDbEntity
  8
Switches
 62
7
100
AcDbSpline
 70
8
 71
3
 72
8
 73
4
 74
0
 40
0
 40
0
 40
0
 40
0
 40
1
 40
1
 40
1
 40
1
 10
10.132666
 20
211.444886
 30
0.0
 10
7.371238
 20
211.444886
 30
0.0
 10
5.132655
 20
209.206312
 30
0.0
 10
5.132644
 20
206.444884
 30
0.0
  0
LWPOLYLINE
  5
134
100
AcDbEntity
  8
Switches
 62
7
100
AcDbPolyline
 90
2
 70
0
 10
226.871316
 20
211.444886
 30
0.0
 10
10.132666
 20
211.444886
 30
0.0
  0
SPLINE
  5
135
100
AcDbEntity
  8
Switches
 62
7
100
AcDbSpline
 70
8
 71
3
 72
8
 73
4
 74
0
 40
0
 40
0
 40
0
 40
0
 40
1
 40
1
 40
1
 40
1
 10
5.132294
 20
120.132344
 30
0.0
 10
5.132280
 20
116.805757
 30
0.0
 10
5.431623
 20
113.485918
 30
0.0
 10
6.026701
 20
110.212990
 30
0.0
  0
LWPOLYLINE
  5
136
100
AcDbEntity
  8
Switches
 62
7
100
AcDbPolyline
 90
2
 70
0
 10
5.132644
 20
206.444884
 30
0.0
 10
5.132294
 20
120.132344
 30
0.0
  0
LWPOLYLINE
  5
137
100
AcDbEntity
  8
Switches
 62
7
100
AcDbPolyline
 90
1
 70
1
 10
6.026701
 20
110.212990
 30
0.0
  0
SPLINE
  5
138
100
AcDbEntity
  8
Switches
 62
7
100
AcDbSpline
 70
8
 71
3
 72
8
 73
4
 74
0
 40
0
 40
0
 40
0
 40
0
 40
1
 40
1
 40
1
 40
1
 10
123.501772
 20
100.132341
 30
0.0
 10
123.501772
 20
98.806258
 30
0.0
 10
122.974987
 20
97.534488
 30
0.0
 10
122.037305
 20
96.596806
 30
0.0
  0
SPLINE
  5
139
100
AcDbEntity
  8
Switches
 62
7
100
AcDbSpline
 70
8
 71
3
 72
8
 73
4
 74
0
 40
0
 40
0
 40
0
 40
0
 40
1
 40
1
 40
1
 40
1
 10
122.037305
 20
96.596806
 30
0.0
 10
121.099623
 20
95.659124
 30
0.0
 10
119.827853
 20
95.132339
 30
0.0
 10
118.501770
 20
95.132339
 30
0.0
  0
SPLINE
  5
13a
100
AcDbEntity
  8
Switches
 62
7
100
AcDbSpline
 70
8
 71
3
 72
8
 73
4
 74
0
 40
0
 40
0
 40
0
 40
0
 40
1
 40
1
 40
1
 40
1
 10
118.501770
 20
95.132339
 30
0.0
 10
117.175687
 20
95.132339
 30
0.0
 10
115.903916
 20
95.659124
 30
0.0
 10
114.966234
 20
96.596806
 30
0.0
  0
SPLINE
  5
13b
100
AcDbEntity
  8
Switches
 62
7
100
AcDbSpline
 70
8
 71
3
 72
8
 73
4
 74
0
 40
0
 40
0
 40
0
 40
0
 40
1
 40
1
 40
1
 40
1
 10
114.966234
 20
96.596806
 30
0.0
 10
114.028552
 20
97.534488
 30
0.0
 10
113.501767
 20
98.806258
 30
0.0
 10
113.501767
 20
100.132341
 30
0.0
  0
SPLINE
  5
13c
100
AcDbEntity
  8
Switches
 62
7
100
AcDbSpline
 70
8
 71
3
 72
8
 73
4
 74
0
 40
0
 40
0
 40
0
 40
0
 40
1
 40
1
 40
1
 40
1
 10
113.501767
 20
100.132341
 30
0.0
 10
113.501767
 20
101.458424
 30
0.0
 10
114.028552
 20
102.730194
 30
0.0
 10
114.966234
 20
103.667877
 30
0.0
  0
SPLINE
  5
13d
100
AcDbEntity
  8
Switches
 62
7
100
AcDbSpline
 70
8
 71
3
 72
8
 73
4
 74
0
 40
0
 40
0
 40
0
 40
0
 40
1
 40
1
 40
1
 40
1
 10
114.966234
 20
103.667877
 30
0.0
 10
115.903916
 20
104.605559
 30
0.0
 10
117.175687
 20
105.132343
 30
0.0
 10
118.501770
 20
105.132343
 30
0.0
  0
SPLINE
  5
13e
100
AcDbEntity
  8
Switches
 62
7
100
AcDbSpline
 70
8
 71
3
 72
8
 73
4
 74
0
 40
0
 40
0
 40
0
 40
0
 40
1
 40
1
 40
1
 40
1
 10
118.501770
 20
105.132343
 30
0.0
 10
119.827853
 20
105.132343
 30
0.0
 10
121.099623
 20
104.605559
 30
0.0
 10
122.037305
 20
103.667877
 30
0.0
  0
SPLINE
  5
13f
100
AcDbEntity
  8
Switches
 62
7
100
AcDbSpline
 70
8
 71
3
 72
8
 73
4
 74
0
 40
0
 40
0
 40
0
 40
0
 40
1
 40
1
 40
1
 40
1
 10
122.037305
 20
103.667877
 30
0.0
 10
122.974987
 20
102.730194
 30
0.0
 10
123.501772
 20
101.458424
 30
0.0
 10
123.501772
 20
100.132341
 30
0.0
  0
LWPOLYLINE
  5
140
100
AcDbEntity
  8
Switches
 62
7
100
AcDbPolyline
 90
17
 70
1
 10
15.132278
 20
201.444882
 30
0.0
 10
15.132278
 20
162.282753
 30
0.0
 10
73.345193
 20
162.282753
 30
0.0
 10
73.345193
 20
125.243675
 30
0.0
 10
54.294403
 20
144.292511
 30
0.0
 10
34.183066
 20
144.292511
 30
0.0
 10
15.132278
 20
125.243675
 30
0.0
 10
15.132278
 20
105.132338
 30
0.0
 10
69.013511
 20
105.132338
 30
0.0
 10
69.013511
 20
67.132322
 30
0.0
 10
179.013556
 20
67.132322
 30
0.0
 10
179.013556
 20
105.132338
 30
0.0
 10
206.694858
 20
105.132338
 30
0.0
 10
216.220252
 20
124.183127
 30
0.0
 10
216.220252
 20
144.292510
 30
0.0
 10
216.220242
 20
185.272824
 30
0.0
 10
211.456580
 20
201.444878
 30
0.0
  0
LWPOLYLINE
  5
141
100
AcDbEntity
  8
Switches
 62
7
100
AcDbPolyline
 90
1
 70
1
 10
123.501772
 20
100.132341
 30
0.0
  0
ENDSEC
  0
SECTION
  2
OBJECTS
  0
DICTIONARY
  5
C
330
0
100
AcDbDictionary
  3
ACAD_GROUP
350
D
  3
ACAD_MLINESTYLE
350
17
  0
DICTIONARY
  5
D
330
C
100
AcDbDictionary
  0
DICTIONARY
  5
1A
330
C
100
AcDbDictionary
  0
DICTIONARY
  5
17
330
C
100
AcDbDictionary
  3
STANDARD
350
18
  0
DICTIONARY
  5
19
330
C
100
AcDbDictionary
  0
ENDSEC
  0
EOF
